Gitarrengriffe und Gitarrenakkorde

Gis / Gis-Dur Akkord

Die Akkordsuchmaschine funktioniert ganz einfach und ist uerst praktisch um Gitarrengriffe und Gitarrenakkorde der Gitarre zu finden und nachzuspielen! Du bist auf der Suche nach dem Griffmuster eines bestimmten Akkordes? Whle einen Gitarrenakkord aus, und lasse dir anzeigen, wie er auf dem Griffbrett gegriffen wird:



Gitarrenakkord: Gis

Hier finden Sie s�mtliche Griffmuster des Gitarrenakkordes Gis . Neben des Griffmusters von Gis als Tabulator k�nnen Sie zus�tzlich Gis auf dem Griffbrett abgebildet sehen. Die roten Punkte zeigen Ihnen, wie Sie Gis auf dem Griffbrett am Gitarrenhals greifen k�nnen. Von links nach rechts k�nnen Sie den Tabulator des Akkordes Gis , die T�ne der einzelnen Saiten des Gitarrengriffes und zuletzt das Griffbild von Gis sehen.

Akkord Gis : Griffmuster 1

E |-----4-----|
H |-----4-----|
G |-----5-----|
D |-----6-----|
A |-----6-----|
E |-----4-----|
E-Saite > Gis
H-Saite > Dis
G-Saite > C
D-Saite > Gis
A-Saite > Dis
E-Saite > Gis

Gis

IV


Akkord Gis : Griffmuster 2

E |----11-----|
H |----13-----|
G |----13-----|
D |----13-----|
A |----11-----|
E |-----x-----|
E-Saite > Dis
H-Saite > C
G-Saite > Gis
D-Saite > Dis
A-Saite > Gis
E-Saite > -

Gis

XI


Akkord Gis : Griffmuster 3

E |-----8-----|
H |-----9-----|
G |-----8-----|
D |-----6-----|
A |-----x-----|
E |-----x-----|
E-Saite > C
H-Saite > Gis
G-Saite > Dis
D-Saite > Gis
A-Saite > -
E-Saite > -

Gis

VI


Akkord Gis : Griffmuster 4

E |-----4-----|
H |-----4-----|
G |-----5-----|
D |-----6-----|
A |-----x-----|
E |-----x-----|
E-Saite > Gis
H-Saite > Dis
G-Saite > C
D-Saite > Gis
A-Saite > -
E-Saite > -

Gis

IV


Akkord Gis : Griffmuster 5

E |-----4-----|
H |-----1-----|
G |-----1-----|
D |-----1-----|
A |-----3-----|
E |-----4-----|
E-Saite > Gis
H-Saite > C
G-Saite > Gis
D-Saite > Dis
A-Saite > C
E-Saite > Gis

Gis

I


Akkord Gis : Griffmuster 6

E |-----8-----|
H |-----9-----|
G |-----8-----|
D |----10-----|
A |----11-----|
E |-----x-----|
E-Saite > C
H-Saite > Gis
G-Saite > Dis
D-Saite > C
A-Saite > Gis
E-Saite > -

Gis

VIII



Ihnen gef�llt die kostenlose Akkordsuche zum Finden s�mtlicher Gitarrenakkorde? Dann Teilen Sie das uns und Ihren Freunden mit! Wir freuen uns �ber jede Weiterempfehlung!