Gitarrengriffe und Gitarrenakkorde

Fis / Fis-Dur Akkord

Die Akkordsuchmaschine funktioniert ganz einfach und ist uerst praktisch um Gitarrengriffe und Gitarrenakkorde der Gitarre zu finden und nachzuspielen! Du bist auf der Suche nach dem Griffmuster eines bestimmten Akkordes? Whle einen Gitarrenakkord aus, und lasse dir anzeigen, wie er auf dem Griffbrett gegriffen wird:



Gitarrenakkord: Fis

Hier finden Sie s�mtliche Griffmuster des Gitarrenakkordes Fis . Neben des Griffmusters von Fis als Tabulator k�nnen Sie zus�tzlich Fis auf dem Griffbrett abgebildet sehen. Die roten Punkte zeigen Ihnen, wie Sie Fis auf dem Griffbrett am Gitarrenhals greifen k�nnen. Von links nach rechts k�nnen Sie den Tabulator des Akkordes Fis , die T�ne der einzelnen Saiten des Gitarrengriffes und zuletzt das Griffbild von Fis sehen.

Akkord Fis : Griffmuster 1

E |-----2-----|
H |-----2-----|
G |-----3-----|
D |-----4-----|
A |-----4-----|
E |-----2-----|
E-Saite > Fis
H-Saite > Cis
G-Saite > Ais
D-Saite > Fis
A-Saite > Cis
E-Saite > Fis

Fis

II


Akkord Fis : Griffmuster 2

E |-----9-----|
H |----11-----|
G |----11-----|
D |----11-----|
A |-----9-----|
E |-----x-----|
E-Saite > Cis
H-Saite > Ais
G-Saite > Fis
D-Saite > Cis
A-Saite > Fis
E-Saite > -

Fis

IX


Akkord Fis : Griffmuster 3

E |-----6-----|
H |-----7-----|
G |-----6-----|
D |-----4-----|
A |-----x-----|
E |-----x-----|
E-Saite > Ais
H-Saite > Fis
G-Saite > Cis
D-Saite > Fis
A-Saite > -
E-Saite > -

Fis

IV


Akkord Fis : Griffmuster 4

E |-----2-----|
H |-----2-----|
G |-----3-----|
D |-----4-----|
A |-----x-----|
E |-----x-----|
E-Saite > Fis
H-Saite > Cis
G-Saite > Ais
D-Saite > Fis
A-Saite > -
E-Saite > -

Fis

II


Akkord Fis : Griffmuster 5

E |----14-----|
H |----11-----|
G |----11-----|
D |----11-----|
A |----13-----|
E |----14-----|
E-Saite > Fis
H-Saite > Ais
G-Saite > Fis
D-Saite > Cis
A-Saite > Ais
E-Saite > Fis

Fis

XI


Akkord Fis : Griffmuster 6

E |-----6-----|
H |-----7-----|
G |-----6-----|
D |-----8-----|
A |-----9-----|
E |-----x-----|
E-Saite > Ais
H-Saite > Fis
G-Saite > Cis
D-Saite > Ais
A-Saite > Fis
E-Saite > -

Fis

VI



Ihnen gef�llt die kostenlose Akkordsuche zum Finden s�mtlicher Gitarrenakkorde? Dann Teilen Sie das uns und Ihren Freunden mit! Wir freuen uns �ber jede Weiterempfehlung!