Gitarrengriffe und Gitarrenakkorde

E / E-Dur Akkord

Die Akkordsuchmaschine funktioniert ganz einfach und ist uerst praktisch um Gitarrengriffe und Gitarrenakkorde der Gitarre zu finden und nachzuspielen! Du bist auf der Suche nach dem Griffmuster eines bestimmten Akkordes? Whle einen Gitarrenakkord aus, und lasse dir anzeigen, wie er auf dem Griffbrett gegriffen wird:



Gitarrenakkord: E

Hier finden Sie s�mtliche Griffmuster des Gitarrenakkordes E . Neben des Griffmusters von E als Tabulator k�nnen Sie zus�tzlich E auf dem Griffbrett abgebildet sehen. Die roten Punkte zeigen Ihnen, wie Sie E auf dem Griffbrett am Gitarrenhals greifen k�nnen. Von links nach rechts k�nnen Sie den Tabulator des Akkordes E , die T�ne der einzelnen Saiten des Gitarrengriffes und zuletzt das Griffbild von E sehen.

Akkord E : Griffmuster 1

E |-----0-----|
H |-----0-----|
G |-----1-----|
D |-----2-----|
A |-----2-----|
E |-----0-----|
E-Saite > E
H-Saite > H
G-Saite > Gis
D-Saite > E
A-Saite > H
E-Saite > E

E

I


Akkord E : Griffmuster 2

E |-----7-----|
H |-----9-----|
G |-----9-----|
D |-----9-----|
A |-----7-----|
E |-----x-----|
E-Saite > H
H-Saite > Gis
G-Saite > E
D-Saite > H
A-Saite > E
E-Saite > -

E

VII


Akkord E : Griffmuster 3

E |-----4-----|
H |-----5-----|
G |-----4-----|
D |-----2-----|
A |-----x-----|
E |-----x-----|
E-Saite > Gis
H-Saite > E
G-Saite > H
D-Saite > E
A-Saite > -
E-Saite > -

E

II


Akkord E : Griffmuster 4

E |-----0-----|
H |-----0-----|
G |-----1-----|
D |-----2-----|
A |-----x-----|
E |-----x-----|
E-Saite > E
H-Saite > H
G-Saite > Gis
D-Saite > E
A-Saite > -
E-Saite > -

E

I


Akkord E : Griffmuster 5

E |----12-----|
H |-----9-----|
G |-----9-----|
D |-----9-----|
A |----11-----|
E |----12-----|
E-Saite > E
H-Saite > Gis
G-Saite > E
D-Saite > H
A-Saite > Gis
E-Saite > E

E

IX


Akkord E : Griffmuster 6

E |-----4-----|
H |-----5-----|
G |-----4-----|
D |-----6-----|
A |-----7-----|
E |-----x-----|
E-Saite > Gis
H-Saite > E
G-Saite > H
D-Saite > Gis
A-Saite > E
E-Saite > -

E

IV



Ihnen gef�llt die kostenlose Akkordsuche zum Finden s�mtlicher Gitarrenakkorde? Dann Teilen Sie das uns und Ihren Freunden mit! Wir freuen uns �ber jede Weiterempfehlung!