Gitarrengriffe und Gitarrenakkorde

Cis / Cis-Dur Akkord

Die Akkordsuchmaschine funktioniert ganz einfach und ist uerst praktisch um Gitarrengriffe und Gitarrenakkorde der Gitarre zu finden und nachzuspielen! Du bist auf der Suche nach dem Griffmuster eines bestimmten Akkordes? Whle einen Gitarrenakkord aus, und lasse dir anzeigen, wie er auf dem Griffbrett gegriffen wird:



Gitarrenakkord: Cis

Hier finden Sie s�mtliche Griffmuster des Gitarrenakkordes Cis . Neben des Griffmusters von Cis als Tabulator k�nnen Sie zus�tzlich Cis auf dem Griffbrett abgebildet sehen. Die roten Punkte zeigen Ihnen, wie Sie Cis auf dem Griffbrett am Gitarrenhals greifen k�nnen. Von links nach rechts k�nnen Sie den Tabulator des Akkordes Cis , die T�ne der einzelnen Saiten des Gitarrengriffes und zuletzt das Griffbild von Cis sehen.

Akkord Cis : Griffmuster 1

E |-----4-----|
H |-----6-----|
G |-----6-----|
D |-----6-----|
A |-----4-----|
E |-----x-----|
E-Saite > Gis
H-Saite > F
G-Saite > Cis
D-Saite > Gis
A-Saite > Cis
E-Saite > -

Cis

IV


Akkord Cis : Griffmuster 2

E |-----9-----|
H |-----9-----|
G |----10-----|
D |----11-----|
A |----11-----|
E |-----9-----|
E-Saite > Cis
H-Saite > Gis
G-Saite > F
D-Saite > Cis
A-Saite > Gis
E-Saite > Cis

Cis

IX


Akkord Cis : Griffmuster 3

E |----13-----|
H |----14-----|
G |----13-----|
D |----11-----|
A |-----x-----|
E |-----x-----|
E-Saite > F
H-Saite > Cis
G-Saite > Gis
D-Saite > Cis
A-Saite > -
E-Saite > -

Cis

XI


Akkord Cis : Griffmuster 4

E |-----9-----|
H |-----9-----|
G |----10-----|
D |----11-----|
A |-----x-----|
E |-----x-----|
E-Saite > Cis
H-Saite > Gis
G-Saite > F
D-Saite > Cis
A-Saite > -
E-Saite > -

Cis

IX


Akkord Cis : Griffmuster 5

E |-----9-----|
H |-----6-----|
G |-----6-----|
D |-----6-----|
A |-----8-----|
E |-----9-----|
E-Saite > Cis
H-Saite > F
G-Saite > Cis
D-Saite > Gis
A-Saite > F
E-Saite > Cis

Cis

VI


Akkord Cis : Griffmuster 6

E |-----1-----|
H |-----2-----|
G |-----1-----|
D |-----3-----|
A |-----4-----|
E |-----x-----|
E-Saite > F
H-Saite > Cis
G-Saite > Gis
D-Saite > F
A-Saite > Cis
E-Saite > -

Cis

I



Ihnen gef�llt die kostenlose Akkordsuche zum Finden s�mtlicher Gitarrenakkorde? Dann Teilen Sie das uns und Ihren Freunden mit! Wir freuen uns �ber jede Weiterempfehlung!