Gitarrengriffe und Gitarrenakkorde

Ais / Ais-Dur Akkord

Die Akkordsuchmaschine funktioniert ganz einfach und ist uerst praktisch um Gitarrengriffe und Gitarrenakkorde der Gitarre zu finden und nachzuspielen! Du bist auf der Suche nach dem Griffmuster eines bestimmten Akkordes? Whle einen Gitarrenakkord aus, und lasse dir anzeigen, wie er auf dem Griffbrett gegriffen wird:



Gitarrenakkord: Ais

Hier finden Sie s�mtliche Griffmuster des Gitarrenakkordes Ais . Neben des Griffmusters von Ais als Tabulator k�nnen Sie zus�tzlich Ais auf dem Griffbrett abgebildet sehen. Die roten Punkte zeigen Ihnen, wie Sie Ais auf dem Griffbrett am Gitarrenhals greifen k�nnen. Von links nach rechts k�nnen Sie den Tabulator des Akkordes Ais , die T�ne der einzelnen Saiten des Gitarrengriffes und zuletzt das Griffbild von Ais sehen.

Akkord Ais : Griffmuster 1

E |-----6-----|
H |-----6-----|
G |-----7-----|
D |-----8-----|
A |-----8-----|
E |-----6-----|
E-Saite > Ais
H-Saite > F
G-Saite > D
D-Saite > Ais
A-Saite > F
E-Saite > Ais

Ais

VI


Akkord Ais : Griffmuster 2

E |-----1-----|
H |-----3-----|
G |-----3-----|
D |-----3-----|
A |-----1-----|
E |-----x-----|
E-Saite > F
H-Saite > D
G-Saite > Ais
D-Saite > F
A-Saite > Ais
E-Saite > -

Ais

I


Akkord Ais : Griffmuster 3

E |----10-----|
H |----11-----|
G |----10-----|
D |-----8-----|
A |-----x-----|
E |-----x-----|
E-Saite > D
H-Saite > Ais
G-Saite > F
D-Saite > Ais
A-Saite > -
E-Saite > -

Ais

VIII


Akkord Ais : Griffmuster 4

E |-----6-----|
H |-----6-----|
G |-----7-----|
D |-----8-----|
A |-----x-----|
E |-----x-----|
E-Saite > Ais
H-Saite > F
G-Saite > D
D-Saite > Ais
A-Saite > -
E-Saite > -

Ais

VI


Akkord Ais : Griffmuster 5

E |-----6-----|
H |-----3-----|
G |-----3-----|
D |-----3-----|
A |-----5-----|
E |-----6-----|
E-Saite > Ais
H-Saite > D
G-Saite > Ais
D-Saite > F
A-Saite > D
E-Saite > Ais

Ais

III


Akkord Ais : Griffmuster 6

E |----10-----|
H |----11-----|
G |----10-----|
D |----12-----|
A |----13-----|
E |-----x-----|
E-Saite > D
H-Saite > Ais
G-Saite > F
D-Saite > D
A-Saite > Ais
E-Saite > -

Ais

X



Ihnen gef�llt die kostenlose Akkordsuche zum Finden s�mtlicher Gitarrenakkorde? Dann Teilen Sie das uns und Ihren Freunden mit! Wir freuen uns �ber jede Weiterempfehlung!