Gitarrengriffe und Gitarrenakkorde

Dis / Dis-Dur Akkord

Die Akkordsuchmaschine funktioniert ganz einfach und ist uerst praktisch um Gitarrengriffe und Gitarrenakkorde der Gitarre zu finden und nachzuspielen! Du bist auf der Suche nach dem Griffmuster eines bestimmten Akkordes? Whle einen Gitarrenakkord aus, und lasse dir anzeigen, wie er auf dem Griffbrett gegriffen wird:



Gitarrenakkord: Dis

Hier finden Sie smtliche Griffmuster des Gitarrenakkordes Dis . Neben des Griffmusters von Dis als Tabulator knnen Sie zustzlich Dis auf dem Griffbrett abgebildet sehen. Die roten Punkte zeigen Ihnen, wie Sie Dis auf dem Griffbrett am Gitarrenhals greifen knnen. Von links nach rechts knnen Sie den Tabulator des Akkordes Dis , die Tne der einzelnen Saiten des Gitarrengriffes und zuletzt das Griffbild von Dis sehen.

Akkord Dis : Griffmuster 1

E |-----6-----|
H |-----8-----|
G |-----8-----|
D |-----8-----|
A |-----6-----|
E |-----x-----|
E-Saite > Ais
H-Saite > G
G-Saite > Dis
D-Saite > Ais
A-Saite > Dis
E-Saite > -

Dis

VI


Akkord Dis : Griffmuster 2

E |----11-----|
H |----11-----|
G |----12-----|
D |----13-----|
A |----13-----|
E |----11-----|
E-Saite > Dis
H-Saite > Ais
G-Saite > G
D-Saite > Dis
A-Saite > Ais
E-Saite > Dis

Dis

XI


Akkord Dis : Griffmuster 3

E |-----3-----|
H |-----4-----|
G |-----3-----|
D |-----1-----|
A |-----x-----|
E |-----x-----|
E-Saite > G
H-Saite > Dis
G-Saite > Ais
D-Saite > Dis
A-Saite > -
E-Saite > -

Dis

I


Akkord Dis : Griffmuster 4

E |----11-----|
H |----11-----|
G |----12-----|
D |----13-----|
A |-----x-----|
E |-----x-----|
E-Saite > Dis
H-Saite > Ais
G-Saite > G
D-Saite > Dis
A-Saite > -
E-Saite > -

Dis

XI


Akkord Dis : Griffmuster 5

E |----11-----|
H |-----8-----|
G |-----8-----|
D |-----8-----|
A |----10-----|
E |----11-----|
E-Saite > Dis
H-Saite > G
G-Saite > Dis
D-Saite > Ais
A-Saite > G
E-Saite > Dis

Dis

VIII


Akkord Dis : Griffmuster 6

E |-----3-----|
H |-----4-----|
G |-----3-----|
D |-----5-----|
A |-----6-----|
E |-----x-----|
E-Saite > G
H-Saite > Dis
G-Saite > Ais
D-Saite > G
A-Saite > Dis
E-Saite > -

Dis

III



Ihnen gefllt die kostenlose Akkordsuche zum Finden smtlicher Gitarrenakkorde? Dann Teilen Sie das uns und Ihren Freunden mit! Wir freuen uns ber jede Weiterempfehlung!